cry baby de JANIS JOPLIN

Posted in General on enero 4, 2009 by sebafernandez

BUENO DISCULPEN PERO SOLO ME PUDE SACAR EL INTRO

lo demas estoy tratando de sacarme

bueno si no les sale a la primera , pueden seguir intentando pero mas LENTO

tomen en cuenta como va la uñeta .


e |---------------------------------------------------------------
B |---------------------------------------------------------------
G |---------------------------------------9-----------------------
D |--9b(11)-(11)r9--7h9p7-------------11-----11--13-13--9-11~~----
A |-----------------------9-7-9--9s12-----------(14)--------------
E |---------------------------------------------------------------

e |---------------11---------------------14--17-------------------
B |---------------------------------------------------------------
G |---------11-11----11------------14-14--------------------------
D |--9--13-----------------12--16---------------------------------
A |---------------------------------------------------------------
E |---------------------------------------------------------------

      B   A    B    A    A    B    A    B    A    B     A     B

e |--11---9----7----5----0----2----5----7----9----11----9-----7---
B |--12---10---7----5----2----4----5----7----10---12----10----7---
G |--11---9----8----6----2----4----6----8----9----11----9-----8---
D |---------------------------------------------------------------
A |---------------------------------------------------------------
E |---------------------------------------------------------------

sweet child¨s of mine (dulce niña mia) tablatura

Posted in General on abril 17, 2008 by sebafernandez

bueno en esta cancion no importa ke tenga ke salir perfecto a la primera ,,solo que toquen bien las cuerdas:

e|————15—-14-/————-15—-14-
B|—15—————-/—-15—————-
G|——14-12—-14—-/——-14-12—-14—-
D|12——————-/-12——————-
A|———————/———————-
E|———————/———————-

e|————15—-14-/————-15—-14-
B|—15—————-/—-15—————-
G|——14-12—-14—-/——-14-12—-14—-
D|14——————-/-14——————-
A|———————/———————-
E|———————/———————-

e|————15—-14-/————-15—-14-
B|—15—————-/—-15—————-
G|12——14-12—-14–/-12—-14-12—-14—-
D|———————/———————-
A|———————/———————-
E|———————/———————-

e|————15—-14-/————-15—-14-
B|—15—————-/—-15—————-
G|——14-12—-14—-/——-14-12—-14—-
D|12——————-/-12——————-
A|———————/———————-
E|———————/——————-

y si no les sale o piensan ke esta un tono arriba bajen todo a un tono abajo ej. si empieza en 12 lo hacen el 11 sucesivamente xd

ese es el intro ,si quieren seguir despues del intro como acordes traten con

RE seguido de DO despues SOL y de nuevo re

xao

Tren al sur (los prisioneros)

Posted in General, musica on abril 14, 2008 by sebafernandez

Am             F
seis Y MEDIA EN LA MAÑANA
Am             F
MI ASIENTO TOCA A LA VENTANA
Am              F
ESTACION CENTRAL SEGUNDO CARRO
Am               F
DEL FERROCARRIL QUE ME LLEVARA AL SUR
Am                 F
Y YA ESTOS FIERROS VAN ANDANDO
Am        F
MI CORAZON ESTA SALTANDO
Am           F
PORQUE ME LLEVAN A LAS TIERRAS
Am               F
DONDE AL FIN PODRE DE NUEVO
Am
RESPIRAR ADENTRO Y HONDO
ALEGRIAS DEL CORAZON

AHHH..

Am  F  [VARIAS VECES]



G           C   Am
Y NO ME DIGAS POBRE
Em     F      G
POR IR VIAJANDO ASI
G                    C  Am
NO VES QUE ESTOY CONTENTO
Em      F     G
NO VES QUE VOY FELIZ


DOCE Y MEDIA EN LA MA~ANA
EL OLOR SE METE EN LA VENTANA
SON FLORES Y ANIMALES
QUE ME DICEN BIEN VENIDO AL SUR

INTRO:REPETIR

YO RECUERDO A MI PAPITO
Y NO ME IMPORTA ESTAR SOLITO
PORQUE ME LLEVAN A LAS TIERRAS
RESPIRAR ADENTRO Y HONDO
ALEGRIAS DEL CORAZON
RESPIRAR
ADENTRO Y HONDO
ALEGRIAS DEL CORAZON.

2]Y NO ME DIGAS POBRE
POR IR VIAJANDO ASI
NO VES QUE ESTOY CONTENTO
NO VES QUE VOY FELIZ

G
VIAJANDO EN ESTE TREN
EN ESTE TREN AL SUR.;

INTRO: VARIAS VECES

2]NO ME DIGAS POBRE
POR IR VIAJANDO ASI
NO VES QUE ESTOY CONTENTO
NO VES QUE ESTOY FELIZ
G
VIAJANDO EN ESTE TREN
EN ESTE TREN AL SUR.

Am      F
TREN AL SUR [REPETIR]



bueno traten de practicar en sus casas

xao

segunda parte de AC/DC thunderstruck

Posted in General on enero 16, 2008 by sebafernandez

e|----------------------------------------------------------------
B|-0-12-0-10-0-9-0-10-0-9-0-7-0-9-0-5-0-4-0-7-0-4-0-5-0-4-0-5-0-4-
G|----------------------------------------------------------------
D|----------------------------------------------------------------
A|----------------------------------------------------------------
E|----------------------------------------------------------------   thunder---------- thunder---------- thunder---------- thunder----------

|----------------------------------|-------------------------------|
|----------------------------------|-------------------------------|
|------4-----4-----4---4-----4-----|---4-----4-----4---4-----4-----|
|------4-----4-----4---4-----4-----|---4-----4-----4---4-----4-----|
|----2---2-------2-------2-------2-|-2---2-------2-------2-------2-| |----------------------------------|-------------------------------|


las notas so las siguientes B5,A5,E5,A5,E5

acdc

Posted in General on diciembre 19, 2007 by sebafernandez

Esta es la primera parte de thunderstruck de acdc , lo importante es que practiquen lento con las 2 manos , y cuando esten listos vayan haciendolo con una mano y con musica,

suerte.

INTRO //hacerlo rapido//:
e|——————————————————————
B|0-4-0-7-0-4-0-7-0-4-0-7-0-4-0-7-0-4-0-7-0-4-0-7-0-4-0-7-0-4-0-7-0-
G|——————————————————————
D|——————————————————————
A|——————————————————————
E|——————————————————————

e|——————————————————————-
B|0-5-0-8-0-5-0-8-0-5-0-8-0-5-0-8-0-5-0-8-0-5-0-8-0-5-0-8-0-5-0-8-0–
G|——————————————————————-
D|——————————————————————-
A|——————————————————————-
E|——————————————————————-

Santana

Posted in General on diciembre 16, 2007 by sebafernandez

El grupo estaba formado por el propio Carlos Santana (guitarra), Gregg Rolie, el cual llegaría a ser un miembro fundador de Journey, (piano y voz), Mariano Luís Díaz (Guitarra), David Brown (bajo), Michael Shrieve (batería), Diego Olivarez (maracas), Juan Perez Bruna (corneta), Jose “Chepito” Areas (percusión) y Michael Carabello (percusión).

Carlos Alberto Santana Barragán, nacío en Autlán de Navarro

el día 20 de julio de 1947

un guitarrista mexicano de rock, rock latino y jazz-rock.

empezó tocando violin pero a los 8 años la cambio por una guitarra

Hace mucho tiempo antes de escuchar del concepto “Música del Mundo” Carlos Santana la tocaba. En una época cuando rock ‘n roll tradicional a base de guitarra surgía de la “Invasión Británica”, llegando a nuevos niveles de popularidad en los mercados de habla inglés y E.U., Santana la instilada con una energía fresca y intensidad emocional profunda que se gano los corazones y toco las almas de millones de aficionados nuevos alrededor del mundo entero.

“Slash, la leyenda del rock”

Posted in General on diciembre 11, 2007 by sebafernandez

 fue uno de los guitarras del popular grupo de Hard Rock estadounidense Guns N’ Roses. Actualmente milita en la banda de rock Velvet Revolver junto con sus compañeros Duff cKagan y Matt Sorum de Guns N’ Roses y el vocalista Scott Weiland (ex miembro de Stone Temple Pilots).

su nombre es  Saul hudson , alias (slash)

nacio en 23 de julio de 1965

es de origen de inglaterra

su instrumento es una Gibson Les Paul.

el origen con el grupo llamado Guns n roses fue cuando slash se conocio con axl roses en1984 cuando fue escuchado tocando en un subte , Vicky Hamilton. Varios meses después, Slash audicionó para tocar en una banda con Rose e Izzy Stradlin, pero otros guitarristas fueron elegidos, entre ellos Tracii Guns. Luego de que Guns no pudiera hacer un concierto en Seattle, Slash y Steven Adler se juntan con Rose, Stradlin y Duff McKagan para formar Guns N’ Roses.

en 1987  realizan el mejor albun “Apetite for destruccion”

en las que sus mejores canciones fueron “sweet childs of mine ,

welcome to the jungle, y paradise city”

Slash ha tocado con Bob Dylan, Michael Jackson, Iggy Pop, Alice Cooper, Lenny Kravitz (amigo de su infancia), Franco Rose, Steven Tyler, Joe Perry, Rolling Stones, Brian May, Motorhead, y muchos más.

También realizó canciones junto a artistas hispanos como Paulina Rubio y la cantante de pop español, Marta Sánchez junto a la cual hizo un tema para el disco Azabache de la española y juntos realizaron la B.S.O. de una película realizada por Tarantino.

pero tras un problema con axl rose , slash dejo el grupo por velvet revolvet comenzó como “El proyecto”, una iniciativa de Slash, Duff McKagan y Matt Sorum para encontrar un nuevo cantante. La segunda guitarra quedó a cargo de David Kushner, quien había tocado con McKagan en la banda “Loaded“.

bueno esa fue la historia de nuestra leyenda Slash

es todo por ahora

y como siempre lleven sus guitarras en la mano y el rock en el corazon …..

nos vemos