cry baby de JANIS JOPLIN

BUENO DISCULPEN PERO SOLO ME PUDE SACAR EL INTRO

lo demas estoy tratando de sacarme

bueno si no les sale a la primera , pueden seguir intentando pero mas LENTO

tomen en cuenta como va la uñeta .


e |---------------------------------------------------------------
B |---------------------------------------------------------------
G |---------------------------------------9-----------------------
D |--9b(11)-(11)r9--7h9p7-------------11-----11--13-13--9-11~~----
A |-----------------------9-7-9--9s12-----------(14)--------------
E |---------------------------------------------------------------

e |---------------11---------------------14--17-------------------
B |---------------------------------------------------------------
G |---------11-11----11------------14-14--------------------------
D |--9--13-----------------12--16---------------------------------
A |---------------------------------------------------------------
E |---------------------------------------------------------------

      B   A    B    A    A    B    A    B    A    B     A     B

e |--11---9----7----5----0----2----5----7----9----11----9-----7---
B |--12---10---7----5----2----4----5----7----10---12----10----7---
G |--11---9----8----6----2----4----6----8----9----11----9-----8---
D |---------------------------------------------------------------
A |---------------------------------------------------------------
E |---------------------------------------------------------------

Responder

Introduce tus datos o haz clic en un icono para iniciar sesión:

Logo de WordPress.com

Estás comentando usando tu cuenta de WordPress.com. Cerrar sesión / Cambiar )

Imagen de Twitter

Estás comentando usando tu cuenta de Twitter. Cerrar sesión / Cambiar )

Foto de Facebook

Estás comentando usando tu cuenta de Facebook. Cerrar sesión / Cambiar )

Google+ photo

Estás comentando usando tu cuenta de Google+. Cerrar sesión / Cambiar )

Conectando a %s

A %d blogueros les gusta esto: