segunda parte de AC/DC thunderstruck


e|----------------------------------------------------------------
B|-0-12-0-10-0-9-0-10-0-9-0-7-0-9-0-5-0-4-0-7-0-4-0-5-0-4-0-5-0-4-
G|----------------------------------------------------------------
D|----------------------------------------------------------------
A|----------------------------------------------------------------
E|----------------------------------------------------------------   thunder---------- thunder---------- thunder---------- thunder----------

|----------------------------------|-------------------------------|
|----------------------------------|-------------------------------|
|------4-----4-----4---4-----4-----|---4-----4-----4---4-----4-----|
|------4-----4-----4---4-----4-----|---4-----4-----4---4-----4-----|
|----2---2-------2-------2-------2-|-2---2-------2-------2-------2-| |----------------------------------|-------------------------------|


las notas so las siguientes B5,A5,E5,A5,E5

Responder

Introduce tus datos o haz clic en un icono para iniciar sesión:

Logo de WordPress.com

Estás comentando usando tu cuenta de WordPress.com. Cerrar sesión / Cambiar )

Imagen de Twitter

Estás comentando usando tu cuenta de Twitter. Cerrar sesión / Cambiar )

Foto de Facebook

Estás comentando usando tu cuenta de Facebook. Cerrar sesión / Cambiar )

Google+ photo

Estás comentando usando tu cuenta de Google+. Cerrar sesión / Cambiar )

Conectando a %s

A %d blogueros les gusta esto: